0
SECTION
2
HEADER
9
$INSUNITS
70
4
9
$ACADVER
1
AC1014
9
$HANDSEED
5
FFFF
0
ENDSEC
0
SECTION
2
TABLES
0
TABLE
2
VPORT
5
8
100
AcDbSymbolTable
0
ENDTAB
0
TABLE
2
LTYPE
5
5
100
AcDbSymbolTable
0
LTYPE
5
14
100
AcDbSymbolTableRecord
100
AcDbLinetypeTableRecord
2
BYBLOCK
70
0
0
LTYPE
5
15
100
AcDbSymbolTableRecord
100
AcDbLinetypeTableRecord
2
BYLAYER
70
0
0
ENDTAB
0
TABLE
2
LAYER
5
2
100
AcDbSymbolTable
70
2
0
LAYER
5
50
100
AcDbSymbolTableRecord
100
AcDbLayerTableRecord
2
0
70
0
6
CONTINUOUS
0
ENDTAB
0
TABLE
2
STYLE
5
3
100
AcDbSymbolTable
70
1
0
STYLE
5
11
100
AcDbSymbolTableRecord
100
AcDbTextStyleTableRecord
2
STANDARD
70
0
0
ENDTAB
0
TABLE
2
VIEW
5
6
100
AcDbSymbolTable
70
0
0
ENDTAB
0
TABLE
2
UCS
5
7
100
AcDbSymbolTable
70
0
0
ENDTAB
0
TABLE
2
APPID
5
9
100
AcDbSymbolTable
70
2
0
APPID
5
12
100
AcDbSymbolTableRecord
100
AcDbRegAppTableRecord
2
ACAD
70
0
0
ENDTAB
0
TABLE
2
DIMSTYLE
5
A
100
AcDbSymbolTable
70
1
0
ENDTAB
0
TABLE
2
BLOCK_RECORD
5
1
100
AcDbSymbolTable
70
1
0
BLOCK_RECORD
5
1F
100
AcDbSymbolTableRecord
100
AcDbBlockTableRecord
2
*MODEL_SPACE
0
BLOCK_RECORD
5
1B
100
AcDbSymbolTableRecord
100
AcDbBlockTableRecord
2
*PAPER_SPACE
0
ENDTAB
0
ENDSEC
0
SECTION
2
BLOCKS
0
BLOCK
5
20
100
AcDbEntity
100
AcDbBlockBegin
2
*MODEL_SPACE
0
ENDBLK
5
21
100
AcDbEntity
100
AcDbBlockEnd
0
BLOCK
5
1C
100
AcDbEntity
100
AcDbBlockBegin
2
*PAPER_SPACE
0
ENDBLK
5
1D
100
AcDbEntity
100
AcDbBlockEnd
0
ENDSEC
0
SECTION
2
ENTITIES
0
LWPOLYLINE
5
100
100
AcDbEntity
8
0
100
AcDbPolyline
90
4
70
1
43
0.0
10
-513.03013564172886
20
471.96196815175227
10
-213.03013564172886
20
471.96196815175227
10
-213.03013564172886
20
-128.03803184824773
10
-513.03013564172886
20
-128.03803184824773
0
LWPOLYLINE
5
101
100
AcDbEntity
8
0
100
AcDbPolyline
90
18
70
1
43
0.0
10
-346.29511299529565
20
-27.452735109049268
10
-346.29511299529565
20
-27.952735109049272
10
-346.64511299529568
20
-27.952735109049272
10
-346.64511299529573
20
-33.452735109049286
10
-344.89511299529568
20
-33.452735109049286
10
-344.89511299529568
20
-35.9527351090493
10
-359.89511299529568
20
-35.952735109049286
10
-359.89511299529568
20
-33.452735109049279
10
-358.14511299529562
20
-33.452735109049279
10
-358.14511299529562
20
-27.952735109049264
10
-358.4951129952957
20
-27.952735109049264
10
-358.4951129952957
20
-27.452735109049264
42
-0.41421356237309509
10
-355.9951129952957
20
-24.952735109049261
10
-352.89511299529568
20
-24.952735109049257
10
-352.89511299529568
20
-34.452735109049286
10
-351.89511299529562
20
-34.452735109049286
10
-351.89511299529568
20
-24.952735109049261
10
-348.79511299529565
20
-24.952735109049268
42
-0.41421356237309509
0
LWPOLYLINE
5
102
100
AcDbEntity
8
0
100
AcDbPolyline
90
20
70
1
43
0.0
10
-357.83529084421133
20
24.971169662979158
10
-356.08529084421139
20
24.971169662979158
10
-356.08529084421139
20
15.471169662979179
42
0.99999999999999989
10
-348.08529084421133
20
15.471169662979154
10
-348.08529084421139
20
24.971169662979147
10
-346.33529084421139
20
24.971169662979147
10
-346.3352908442115
20
30.471169662979143
10
-348.08529084421139
20
30.471169662979143
10
-348.08529084421139
20
30.971169662979147
42
-0.41421356237307339
10
-346.58529084421139
20
32.47116966297915
10
-346.08529084421139
20
32.471169662979165
42
-0.4142135623730604
10
-344.58529084421144
20
30.971169662979143
10
-344.58529084421139
20
15.471169662979168
42
-0.99999999999999989
10
-359.58529084421139
20
15.471169662979163
10
-359.58529084421139
20
30.971169656513663
42
-0.41421356239399221
10
-358.08529084410452
20
32.471169656513659
10
-357.58529084410469
20
32.471169656478047
42
-0.41421356235225854
10
-356.08529084421144
20
30.97116965647805
10
-356.08529084421144
20
30.471169662979154
10
-357.83529084421139
20
30.471169662979154
0
LWPOLYLINE
5
103
100
AcDbEntity
8
0
100
AcDbPolyline
90
8
70
1
43
0.0
10
-347.39932387841156
20
57.76440062343287
42
-1.4560832005096398
10
-343.89932387841156
20
57.764400623432934
10
-343.89932387841162
20
45.920111853208184
42
-0.99999999999999989
10
-358.89932387841162
20
45.920111853208169
10
-358.89932387841156
20
57.76440062343292
42
-1.4560832005096711
10
-355.39932387841162
20
57.764400623432913
10
-355.39932387841162
20
53.420111853208198
10
-347.39932387841156
20
53.420111853208184
0
LWPOLYLINE
5
104
100
AcDbEntity
8
0
100
AcDbPolyline
90
20
70
1
43
0.0
10
-362.97462417754474
20
32.471169662979165
42
-0.4142135623730604
10
-361.47462417754474
20
30.971169662979143
10
-361.47462417754468
20
15.471169662979168
42
-0.99999999999999989
10
-376.47462417754468
20
15.471169662979163
10
-376.47462417754468
20
30.971169656513663
42
-0.41421356239399221
10
-374.97462417743782
20
32.471169656513659
10
-374.47462417743799
20
32.471169656478047
42
-0.41421356235225854
10
-372.97462417754474
20
30.97116965647805
10
-372.97462417754474
20
30.471169662979154
10
-374.72462417754468
20
30.471169662979154
10
-374.72462417754463
20
24.971169662979158
10
-372.97462417754468
20
24.971169662979158
10
-372.97462417754468
20
15.471169662979179
42
0.99999999999999989
10
-364.97462417754463
20
15.471169662979154
10
-364.97462417754468
20
24.971169662979147
10
-363.22462417754474
20
24.971169662979147
10
-363.2246241775448
20
30.471169662979143
10
-364.97462417754468
20
30.471169662979143
10
-364.97462417754468
20
30.971169662979147
42
-0.41421356237307339
10
-363.47462417754468
20
32.47116966297915
0
LWPOLYLINE
5
105
100
AcDbEntity
8
0
100
AcDbPolyline
90
20
70
1
43
0.0
10
-379.86395751087809
20
32.471169662979165
42
-0.4142135623730604
10
-378.36395751087815
20
30.971169662979143
10
-378.36395751087809
20
15.471169662979168
42
-0.99999999999999989
10
-393.36395751087809
20
15.471169662979163
10
-393.36395751087809
20
30.971169656513663
42
-0.41421356239399221
10
-391.86395751077123
20
32.471169656513659
10
-391.3639575107714
20
32.471169656478047
42
-0.41421356235225854
10
-389.86395751087809
20
30.97116965647805
10
-389.86395751087809
20
30.471169662979154
10
-391.61395751087809
20
30.471169662979154
10
-391.61395751087804
20
24.971169662979158
10
-389.86395751087804
20
24.971169662979158
10
-389.86395751087804
20
15.471169662979179
42
0.99999999999999989
10
-381.86395751087798
20
15.471169662979154
10
-381.86395751087809
20
24.971169662979147
10
-380.11395751087809
20
24.971169662979147
10
-380.11395751087821
20
30.471169662979143
10
-381.86395751087809
20
30.471169662979143
10
-381.86395751087809
20
30.971169662979147
42
-0.41421356237307339
10
-380.36395751087809
20
32.47116966297915
0
LWPOLYLINE
5
106
100
AcDbEntity
8
0
100
AcDbPolyline
90
20
70
1
43
0.0
10
-396.75329084421139
20
32.471169662979165
42
-0.4142135623730604
10
-395.25329084421145
20
30.971169662979143
10
-395.25329084421139
20
15.471169662979168
42
-0.99999999999999989
10
-410.25329084421139
20
15.471169662979163
10
-410.25329084421139
20
30.971169656513663
42
-0.41421356239399221
10
-408.75329084410453
20
32.471169656513659
10
-408.2532908441047
20
32.471169656478047
42
-0.41421356235225854
10
-406.75329084421145
20
30.97116965647805
10
-406.75329084421145
20
30.471169662979154
10
-408.50329084421139
20
30.471169662979154
10
-408.50329084421134
20
24.971169662979158
10
-406.75329084421139
20
24.971169662979158
10
-406.75329084421139
20
15.471169662979179
42
0.99999999999999989
10
-398.75329084421134
20
15.471169662979154
10
-398.75329084421139
20
24.971169662979147
10
-397.00329084421139
20
24.971169662979147
10
-397.00329084421151
20
30.471169662979143
10
-398.75329084421139
20
30.471169662979143
10
-398.75329084421139
20
30.971169662979147
42
-0.41421356237307339
10
-397.25329084421139
20
32.47116966297915
0
LWPOLYLINE
5
107
100
AcDbEntity
8
0
100
AcDbPolyline
90
20
70
1
43
0.0
10
-346.08529084421139
20
8.2301696629791632
42
-0.4142135623730604
10
-344.58529084421144
20
6.7301696629791419
10
-344.58529084421139
20
-8.769830337020835
42
-0.99999999999999989
10
-359.58529084421139
20
-8.7698303370208386
10
-359.58529084421139
20
6.7301696565136604
42
-0.41421356239399221
10
-358.08529084410452
20
8.2301696565136595
10
-357.58529084410469
20
8.2301696564780471
42
-0.41421356235225854
10
-356.08529084421144
20
6.7301696564780489
10
-356.08529084421144
20
6.2301696629791525
10
-357.83529084421139
20
6.2301696629791525
10
-357.83529084421133
20
0.73016966297915431
10
-356.08529084421139
20
0.73016966297915431
10
-356.08529084421139
20
-8.7698303370208226
42
0.99999999999999989
10
-348.08529084421133
20
-8.7698303370208475
10
-348.08529084421139
20
0.73016966297914543
10
-346.33529084421139
20
0.73016966297914543
10
-346.3352908442115
20
6.2301696629791437
10
-348.08529084421139
20
6.2301696629791437
10
-348.08529084421139
20
6.7301696629791463
42
-0.41421356237307339
10
-346.58529084421139
20
8.2301696629791454
0
LWPOLYLINE
5
108
100
AcDbEntity
8
0
100
AcDbPolyline
90
20
70
1
43
0.0
10
-362.97462417754474
20
8.2301696629791632
42
-0.4142135623730604
10
-361.47462417754474
20
6.7301696629791419
10
-361.47462417754468
20
-8.769830337020835
42
-0.99999999999999989
10
-376.47462417754468
20
-8.7698303370208386
10
-376.47462417754468
20
6.7301696565136604
42
-0.41421356239399221
10
-374.97462417743782
20
8.2301696565136595
10
-374.47462417743799
20
8.2301696564780471
42
-0.41421356235225854
10
-372.97462417754474
20
6.7301696564780489
10
-372.97462417754474
20
6.2301696629791525
10
-374.72462417754468
20
6.2301696629791525
10
-374.72462417754463
20
0.73016966297915431
10
-372.97462417754468
20
0.73016966297915431
10
-372.97462417754468
20
-8.7698303370208226
42
0.99999999999999989
10
-364.97462417754463
20
-8.7698303370208475
10
-364.97462417754468
20
0.73016966297914543
10
-363.22462417754474
20
0.73016966297914543
10
-363.2246241775448
20
6.2301696629791437
10
-364.97462417754468
20
6.2301696629791437
10
-364.97462417754468
20
6.7301696629791463
42
-0.41421356237307339
10
-363.47462417754468
20
8.2301696629791454
0
LWPOLYLINE
5
109
100
AcDbEntity
8
0
100
AcDbPolyline
90
20
70
1
43
0.0
10
-379.86395751087809
20
8.2301696629791632
42
-0.4142135623730604
10
-378.36395751087815
20
6.7301696629791419
10
-378.36395751087809
20
-8.769830337020835
42
-0.99999999999999989
10
-393.36395751087809
20
-8.7698303370208386
10
-393.36395751087809
20
6.7301696565136604
42
-0.41421356239399221
10
-391.86395751077123
20
8.2301696565136595
10
-391.3639575107714
20
8.2301696564780471
42
-0.41421356235225854
10
-389.86395751087809
20
6.7301696564780489
10
-389.86395751087809
20
6.2301696629791525
10
-391.61395751087809
20
6.2301696629791525
10
-391.61395751087804
20
0.73016966297915431
10
-389.86395751087804
20
0.73016966297915431
10
-389.86395751087804
20
-8.7698303370208226
42
0.99999999999999989
10
-381.86395751087798
20
-8.7698303370208475
10
-381.86395751087809
20
0.73016966297914543
10
-380.11395751087809
20
0.73016966297914543
10
-380.11395751087821
20
6.2301696629791437
10
-381.86395751087809
20
6.2301696629791437
10
-381.86395751087809
20
6.7301696629791463
42
-0.41421356237307339
10
-380.36395751087809
20
8.2301696629791454
0
LWPOLYLINE
5
110
100
AcDbEntity
8
0
100
AcDbPolyline
90
20
70
1
43
0.0
10
-396.75329084421139
20
8.2301696629791632
42
-0.4142135623730604
10
-395.25329084421145
20
6.7301696629791419
10
-395.25329084421139
20
-8.769830337020835
42
-0.99999999999999989
10
-410.25329084421139
20
-8.7698303370208386
10
-410.25329084421139
20
6.7301696565136604
42
-0.41421356239399221
10
-408.75329084410453
20
8.2301696565136595
10
-408.2532908441047
20
8.2301696564780471
42
-0.41421356235225854
10
-406.75329084421145
20
6.7301696564780489
10
-406.75329084421145
20
6.2301696629791525
10
-408.50329084421139
20
6.2301696629791525
10
-408.50329084421134
20
0.73016966297915431
10
-406.75329084421139
20
0.73016966297915431
10
-406.75329084421139
20
-8.7698303370208226
42
0.99999999999999989
10
-398.75329084421134
20
-8.7698303370208475
10
-398.75329084421139
20
0.73016966297914543
10
-397.00329084421139
20
0.73016966297914543
10
-397.00329084421151
20
6.2301696629791437
10
-398.75329084421139
20
6.2301696629791437
10
-398.75329084421139
20
6.7301696629791463
42
-0.41421356237307339
10
-397.25329084421139
20
8.2301696629791454
0
LWPOLYLINE
5
111
100
AcDbEntity
8
0
100
AcDbPolyline
90
18
70
1
43
0.0
10
-363.07344632862907
20
-33.452735109049286
10
-361.32344632862902
20
-33.452735109049286
10
-361.32344632862902
20
-35.9527351090493
10
-376.32344632862902
20
-35.952735109049286
10
-376.32344632862902
20
-33.452735109049279
10
-374.57344632862896
20
-33.452735109049279
10
-374.57344632862896
20
-27.952735109049264
10
-374.92344632862904
20
-27.952735109049264
10
-374.92344632862904
20
-27.452735109049264
42
-0.41421356237309509
10
-372.42344632862904
20
-24.952735109049261
10
-369.32344632862902
20
-24.952735109049257
10
-369.32344632862902
20
-34.452735109049286
10
-368.32344632862896
20
-34.452735109049286
10
-368.32344632862907
20
-24.952735109049261
10
-365.22344632862905
20
-24.952735109049268
42
-0.41421356237309509
10
-362.72344632862905
20
-27.452735109049268
10
-362.72344632862905
20
-27.952735109049272
10
-363.07344632862902
20
-27.952735109049272
0
LWPOLYLINE
5
112
100
AcDbEntity
8
0
100
AcDbPolyline
90
18
70
1
43
0.0
10
-379.50177966196236
20
-33.452735109049286
10
-377.7517796619623
20
-33.452735109049286
10
-377.7517796619623
20
-35.9527351090493
10
-392.7517796619623
20
-35.952735109049286
10
-392.7517796619623
20
-33.452735109049279
10
-391.00177966196225
20
-33.452735109049279
10
-391.00177966196225
20
-27.952735109049264
10
-391.35177966196233
20
-27.952735109049264
10
-391.35177966196233
20
-27.452735109049264
42
-0.41421356237309509
10
-388.85177966196233
20
-24.952735109049261
10
-385.7517796619623
20
-24.952735109049257
10
-385.7517796619623
20
-34.452735109049286
10
-384.75177966196225
20
-34.452735109049286
10
-384.75177966196236
20
-24.952735109049261
10
-381.65177966196234
20
-24.952735109049268
42
-0.41421356237309509
10
-379.15177966196234
20
-27.452735109049268
10
-379.15177966196234
20
-27.952735109049272
10
-379.5017796619623
20
-27.952735109049272
0
LWPOLYLINE
5
113
100
AcDbEntity
8
0
100
AcDbPolyline
90
18
70
1
43
0.0
10
-395.9301129952957
20
-33.452735109049286
10
-394.18011299529564
20
-33.452735109049286
10
-394.18011299529564
20
-35.9527351090493
10
-409.18011299529564
20
-35.952735109049286
10
-409.18011299529564
20
-33.452735109049279
10
-407.43011299529564
20
-33.452735109049279
10
-407.43011299529564
20
-27.952735109049264
10
-407.78011299529567
20
-27.952735109049264
10
-407.78011299529567
20
-27.452735109049264
42
-0.41421356237309509
10
-405.28011299529567
20
-24.952735109049261
10
-402.18011299529564
20
-24.952735109049257
10
-402.18011299529564
20
-34.452735109049286
10
-401.18011299529564
20
-34.452735109049286
10
-401.1801129952957
20
-24.952735109049261
10
-398.08011299529568
20
-24.952735109049268
42
-0.41421356237309509
10
-395.58011299529568
20
-27.452735109049268
10
-395.58011299529568
20
-27.952735109049272
10
-395.93011299529564
20
-27.952735109049272
0
LWPOLYLINE
5
114
100
AcDbEntity
8
0
100
AcDbPolyline
90
18
70
1
43
0.0
10
-346.64511299529573
20
-45.515735109049288
10
-344.89511299529568
20
-45.515735109049295
10
-344.89511299529568
20
-48.015735109049295
10
-359.89511299529568
20
-48.015735109049295
10
-359.89511299529568
20
-45.515735109049288
10
-358.14511299529562
20
-45.515735109049274
10
-358.14511299529562
20
-40.01573510904926
10
-358.4951129952957
20
-40.01573510904926
10
-358.4951129952957
20
-39.515735109049267
42
-0.41421356237309509
10
-355.9951129952957
20
-37.01573510904926
10
-352.89511299529568
20
-37.015735109049253
10
-352.89511299529568
20
-46.515735109049281
10
-351.89511299529562
20
-46.515735109049281
10
-351.89511299529568
20
-37.01573510904926
10
-348.79511299529565
20
-37.015735109049274
42
-0.41421356237309509
10
-346.29511299529565
20
-39.515735109049274
10
-346.29511299529565
20
-40.015735109049274
10
-346.64511299529568
20
-40.015735109049267
0
LWPOLYLINE
5
115
100
AcDbEntity
8
0
100
AcDbPolyline
90
18
70
1
43
0.0
10
-363.07344632862907
20
-45.515735109049288
10
-361.32344632862902
20
-45.515735109049295
10
-361.32344632862902
20
-48.015735109049295
10
-376.32344632862902
20
-48.015735109049295
10
-376.32344632862902
20
-45.515735109049288
10
-374.57344632862896
20
-45.515735109049274
10
-374.57344632862896
20
-40.01573510904926
10
-374.92344632862904
20
-40.01573510904926
10
-374.92344632862904
20
-39.515735109049267
42
-0.41421356237309509
10
-372.42344632862904
20
-37.01573510904926
10
-369.32344632862902
20
-37.015735109049253
10
-369.32344632862902
20
-46.515735109049281
10
-368.32344632862896
20
-46.515735109049281
10
-368.32344632862907
20
-37.01573510904926
10
-365.22344632862905
20
-37.015735109049274
42
-0.41421356237309509
10
-362.72344632862905
20
-39.515735109049274
10
-362.72344632862905
20
-40.015735109049274
10
-363.07344632862902
20
-40.015735109049267
0
LWPOLYLINE
5
116
100
AcDbEntity
8
0
100
AcDbPolyline
90
18
70
1
43
0.0
10
-379.50177966196236
20
-45.515735109049288
10
-377.7517796619623
20
-45.515735109049295
10
-377.7517796619623
20
-48.015735109049295
10
-392.7517796619623
20
-48.015735109049295
10
-392.7517796619623
20
-45.515735109049288
10
-391.00177966196225
20
-45.515735109049274
10
-391.00177966196225
20
-40.01573510904926
10
-391.35177966196233
20
-40.01573510904926
10
-391.35177966196233
20
-39.515735109049267
42
-0.41421356237309509
10
-388.85177966196233
20
-37.01573510904926
10
-385.7517796619623
20
-37.015735109049253
10
-385.7517796619623
20
-46.515735109049281
10
-384.75177966196225
20
-46.515735109049281
10
-384.75177966196236
20
-37.01573510904926
10
-381.65177966196234
20
-37.015735109049274
42
-0.41421356237309509
10
-379.15177966196234
20
-39.515735109049274
10
-379.15177966196234
20
-40.015735109049274
10
-379.5017796619623
20
-40.015735109049267
0
LWPOLYLINE
5
117
100
AcDbEntity
8
0
100
AcDbPolyline
90
18
70
1
43
0.0
10
-395.9301129952957
20
-45.515735109049288
10
-394.18011299529564
20
-45.515735109049295
10
-394.18011299529564
20
-48.015735109049295
10
-409.18011299529564
20
-48.015735109049295
10
-409.18011299529564
20
-45.515735109049288
10
-407.43011299529564
20
-45.515735109049274
10
-407.43011299529564
20
-40.01573510904926
10
-407.78011299529567
20
-40.01573510904926
10
-407.78011299529567
20
-39.515735109049267
42
-0.41421356237309509
10
-405.28011299529567
20
-37.01573510904926
10
-402.18011299529564
20
-37.015735109049253
10
-402.18011299529564
20
-46.515735109049281
10
-401.18011299529564
20
-46.515735109049281
10
-401.1801129952957
20
-37.01573510904926
10
-398.08011299529568
20
-37.015735109049274
42
-0.41421356237309509
10
-395.58011299529568
20
-39.515735109049274
10
-395.58011299529568
20
-40.015735109049274
10
-395.93011299529564
20
-40.015735109049267
0
LWPOLYLINE
5
118
100
AcDbEntity
8
0
100
AcDbPolyline
90
8
70
1
43
0.0
10
-364.35832387841162
20
57.76440062343287
42
-1.4560832005096398
10
-360.85832387841157
20
57.764400623432934
10
-360.85832387841162
20
45.920111853208184
42
-0.99999999999999989
10
-375.85832387841162
20
45.920111853208169
10
-375.85832387841157
20
57.76440062343292
42
-1.4560832005096711
10
-372.35832387841162
20
57.764400623432913
10
-372.35832387841162
20
53.420111853208198
10
-364.35832387841162
20
53.420111853208184
0
LWPOLYLINE
5
119
100
AcDbEntity
8
0
100
AcDbPolyline
90
42
70
1
43
0.0
10
-331.28915800147411
20
-98.499177793641479
10
-325.78915800147411
20
-98.499177793641479
10
-325.78915800147411
20
-24.999177793641483
10
-323.78915800147411
20
-24.999177793641483
10
-323.78915800147411
20
-26.249177793641465
10
-321.28915800147411
20
-26.249177793641465
10
-321.28915800147411
20
-24.999177793641483
10
-315.78915800147411
20
-24.999177793641483
10
-315.78915800147411
20
-21.999177793641476
10
-321.28915800147411
20
-21.999177793641476
10
-321.28915800147411
20
-20.749177793641476
10
-323.78915800147411
20
-20.749177793641476
10
-323.78915800147411
20
-21.999177793641476
10
-325.78915800147411
20
-21.999177793641476
10
-325.78915800147411
20
51.500822206358521
10
-331.28915800147411
20
51.500822206358521
10
-331.28915800147411
20
61.500822206358521
10
-280.78915800147411
20
61.500822206358521
10
-280.78915800147411
20
-278.49917779364148
10
-298.28915800147411
20
-278.49917779364148
10
-298.28915800147411
20
-272.99917779364148
10
-308.28915800147411
20
-272.99917779364148
10
-308.28915800147411
20
-278.49917779364148
10
-325.78915800147411
20
-278.49917779364148
10
-325.78915800147411
20
-258.49917779364148
10
-331.28915800147411
20
-258.49917779364148
10
-331.28915800147411
20
-248.49917779364148
10
-325.78915800147411
20
-248.49917779364148
10
-325.78915800147411
20
-179.99917779364148
10
-323.78915800147411
20
-179.99917779364148
10
-323.78915800147411
20
-181.24917779364148
10
-321.28915800147411
20
-181.24917779364148
10
-321.28915800147411
20
-179.99917779364148
10
-315.78915800147411
20
-179.99917779364151
10
-315.78915800147411
20
-176.99917779364148
10
-321.28915800147411
20
-176.99917779364148
10
-321.28915800147411
20
-175.74917779364148
10
-323.78915800147411
20
-175.74917779364148
10
-323.78915800147411
20
-176.99917779364148
10
-325.78915800147411
20
-176.99917779364148
10
-325.78915800147411
20
-108.49917779364148
10
-331.28915800147411
20
-108.49917779364148
0
LWPOLYLINE
5
120
100
AcDbEntity
8
0
100
AcDbPolyline
90
42
70
1
43
0.0
10
-269.96126153755108
20
-117.77120598783384
10
-275.46126153755108
20
-117.77120598783385
10
-275.46126153755108
20
-107.77120598783387
10
-269.96126153755108
20
-107.77120598783385
10
-269.9612615375512
20
-39.271205987833987
10
-267.9612615375512
20
-39.271205987833973
10
-267.9612615375512
20
-40.521205987833966
10
-265.4612615375512
20
-40.521205987833973
10
-265.4612615375512
20
-39.271205987833973
10
-259.9612615375512
20
-39.271205987833959
10
-259.96126153755125
20
-36.27120598783398
10
-265.4612615375512
20
-36.271205987833994
10
-265.4612615375512
20
-35.021205987834001
10
-267.9612615375512
20
-35.021205987833994
10
-267.9612615375512
20
-36.271205987833987
10
-269.9612615375512
20
-36.271205987833994
10
-269.96126153755131
20
32.228794012165885
10
-275.46126153755131
20
32.228794012165878
10
-275.46126153755125
20
42.228794012165871
10
-269.96126153755131
20
42.228794012165892
10
-269.96126153755131
20
62.228794012165871
10
-252.46126153755137
20
62.228794012165885
10
-252.46126153755137
20
56.728794012165871
10
-242.46126153755139
20
56.728794012165899
10
-242.46126153755139
20
62.228794012165906
10
-224.96126153755142
20
62.228794012165949
10
-224.961261537551
20
-277.77120598783347
10
-275.46126153755091
20
-277.77120598783358
10
-275.46126153755085
20
-267.77120598783358
10
-269.96126153755091
20
-267.77120598783358
10
-269.96126153755097
20
-194.2712059878337
10
-267.96126153755102
20
-194.2712059878337
10
-267.96126153755102
20
-195.5212059878337
10
-265.46126153755102
20
-195.5212059878337
10
-265.46126153755102
20
-194.2712059878337
10
-259.96126153755102
20
-194.27120598783372
10
-259.96126153755102
20
-191.2712059878337
10
-265.46126153755102
20
-191.27120598783367
10
-265.46126153755102
20
-190.0212059878337
10
-267.96126153755102
20
-190.02120598783375
10
-267.96126153755102
20
-191.2712059878337
10
-269.96126153755097
20
-191.2712059878337
0
LWPOLYLINE
5
121
100
AcDbEntity
8
0
100
AcDbPolyline
90
44
70
1
43
0.0
10
-288.78013564172898
20
124.70728107015617
10
-288.78013564172886
20
119.20728107015617
10
-253.15513564172903
20
119.20728107015617
10
-253.15513564172903
20
117.20728107015617
10
-254.40513564172903
20
117.20728107015617
10
-254.40513564172903
20
114.70728107015617
10
-253.15513564172898
20
114.70728107015617
10
-253.155135641729
20
109.20728107015617
10
-250.15513564172898
20
109.20728107015617
10
-250.15513564172898
20
114.70728107015617
10
-248.90513564172898
20
114.70728107015617
10
-248.90513564172898
20
117.20728107015617
10
-250.15513564172898
20
117.20728107015617
10
-250.15513564172898
20
119.20728107015617
10
-220.03013564172903
20
119.20728107015617
10
-220.030135641729
20
101.70728107015668
10
-214.53013564172895
20
101.7072810701567
10
-214.53013564172895
20
91.707281070156697
10
-220.03013564172892
20
91.707281070156682
10
-220.03013564172892
20
74.207281070156156
10
-506.03013564172892
20
74.207281070156156
10
-506.03013564172886
20
91.707281070156171
10
-511.53013564172886
20
91.707281070156171
10
-511.53013564172898
20
101.70728107015617
10
-506.03013564172892
20
101.70728107015617
10
-506.03013564172892
20
119.20728107015617
10
-475.90513564172898
20
119.20728107015617
10
-475.90513564172898
20
117.20728107015617
10
-477.15513564172898
20
117.20728107015617
10
-477.15513564172898
20
114.70728107015617
10
-475.90513564172898
20
114.70728107015617
10
-475.90513564172898
20
109.20728107015617
10
-472.90513564172892
20
109.20728107015617
10
-472.90513564172892
20
114.70728107015617
10
-471.65513564172892
20
114.70728107015617
10
-471.65513564172892
20
117.20728107015617
10
-472.90513564172892
20
117.20728107015617
10
-472.90513564172898
20
119.20728107015617
10
-437.28013564172892
20
119.20728107015617
10
-437.28013564172886
20
124.70728107015617
10
-427.28013564172903
20
124.70728107015617
10
-427.28013564172898
20
119.20728107015617
10
-298.78013564172886
20
119.20728107015617
10
-298.78013564172892
20
124.70728107015617
0
CIRCLE
5
122
100
AcDbEntity
8
0
100
AcDbCircle
10
-226.18013564172878
20
430.31196815175235
30
0
40
1.4999999999999858
0
CIRCLE
5
123
100
AcDbEntity
8
0
100
AcDbCircle
10
-226.18013564172884
20
461.3119681517523
30
0
40
1.5000000000000036
0
CIRCLE
5
124
100
AcDbEntity
8
0
100
AcDbCircle
10
-468.88013564172877
20
461.31196815175258
30
0
40
1.5000000000000036
0
CIRCLE
5
125
100
AcDbEntity
8
0
100
AcDbCircle
10
-474.40513564172886
20
129.71196815175261
30
0
40
1.5000000000000036
0
CIRCLE
5
126
100
AcDbEntity
8
0
100
AcDbCircle
10
-499.88013564172877
20
430.31196815175247
30
0
40
1.4999999999999858
0
CIRCLE
5
127
100
AcDbEntity
8
0
100
AcDbCircle
10
-251.65513564172895
20
129.71196815175247
30
0
40
1.5000000000000036
0
CIRCLE
5
128
100
AcDbEntity
8
0
100
AcDbCircle
10
-217.28013564172892
20
226.96196815175242
30
0
40
1.5000000000000036
0
CIRCLE
5
129
100
AcDbEntity
8
0
100
AcDbCircle
10
-484.38013564172877
20
445.81196815175258
30
0
40
3.499999999999996
0
CIRCLE
5
130
100
AcDbEntity
8
0
100
AcDbCircle
10
-468.88013564172871
20
430.31196815175247
30
0
40
1.5000000000000036
0
CIRCLE
5
131
100
AcDbEntity
8
0
100
AcDbCircle
10
-241.68013564172881
20
445.81196815175241
30
0
40
3.499999999999996
0
CIRCLE
5
132
100
AcDbEntity
8
0
100
AcDbCircle
10
-257.18013564172884
20
461.31196815175247
30
0
40
1.5000000000000036
0
CIRCLE
5
133
100
AcDbEntity
8
0
100
AcDbCircle
10
-217.28013564172883
20
381.96196815175233
30
0
40
1.5000000000000036
0
CIRCLE
5
134
100
AcDbEntity
8
0
100
AcDbCircle
10
-499.88013564172877
20
461.31196815175235
30
0
40
1.5000000000000036
0
LWPOLYLINE
5
135
100
AcDbEntity
8
0
100
AcDbPolyline
90
4
70
1
43
0.0
10
-226.03013564172892
20
174.16196815175238
10
-229.53013564172889
20
174.16196815175238
10
-229.53013564172892
20
168.66196815175238
10
-226.03013564172892
20
168.66196815175238
0
CIRCLE
5
136
100
AcDbEntity
8
0
100
AcDbCircle
10
-241.68013564172901
20
151.96196815175233
30
0
40
2.5
0
CIRCLE
5
137
100
AcDbEntity
8
0
100
AcDbCircle
10
-257.18013564172884
20
430.31196815175235
30
0
40
1.5000000000000036
0
LWPOLYLINE
5
138
100
AcDbEntity
8
0
100
AcDbPolyline
90
4
70
1
43
0.0
10
-237.53013564172889
20
184.66196815175238
10
-241.03013564172886
20
184.66196815175238
10
-241.03013564172892
20
179.16196815175238
10
-237.53013564172889
20
179.16196815175238
0
CIRCLE
5
139
100
AcDbEntity
8
0
100
AcDbCircle
10
-484.38013564172877
20
151.96196815175261
30
0
40
2.5
0
CIRCLE
5
140
100
AcDbEntity
8
0
100
AcDbCircle
10
-472.53013564172886
20
171.96196815175239
30
0
40
2.5
0
LWPOLYLINE
5
141
100
AcDbEntity
8
0
100
AcDbPolyline
90
4
70
1
43
0.0
10
-237.53013564172889
20
174.16196815175238
10
-241.03013564172886
20
174.16196815175238
10
-241.03013564172892
20
168.66196815175238
10
-237.53013564172889
20
168.66196815175238
0
LWPOLYLINE
5
142
100
AcDbEntity
8
0
100
AcDbPolyline
90
4
70
1
43
0.0
10
-496.5301356417288
20
168.66196815175238
10
-496.5301356417288
20
174.16196815175238
10
-500.0301356417288
20
174.16196815175238
10
-500.0301356417288
20
168.66196815175238
0
LWPOLYLINE
5
143
100
AcDbEntity
8
0
100
AcDbPolyline
90
4
70
1
43
0.0
10
-237.53013564172889
20
419.66196815175238
10
-241.03013564172892
20
419.66196815175238
10
-241.03013564172892
20
414.16196815175238
10
-237.53013564172889
20
414.16196815175238
0
LWPOLYLINE
5
144
100
AcDbEntity
8
0
100
AcDbPolyline
90
4
70
1
43
0.0
10
-485.0301356417288
20
168.66196815175238
10
-485.0301356417288
20
174.16196815175238
10
-488.53013564172886
20
174.16196815175238
10
-488.53013564172886
20
168.66196815175238
0
LWPOLYLINE
5
145
100
AcDbEntity
8
0
100
AcDbPolyline
90
4
70
1
43
0.0
10
-226.03013564172892
20
419.66196815175238
10
-229.53013564172889
20
419.66196815175238
10
-229.53013564172892
20
414.16196815175238
10
-226.03013564172892
20
414.16196815175238
0
LWPOLYLINE
5
146
100
AcDbEntity
8
0
100
AcDbPolyline
90
4
70
1
43
0.0
10
-485.0301356417288
20
179.16196815175238
10
-485.0301356417288
20
184.66196815175238
10
-488.53013564172886
20
184.66196815175238
10
-488.53013564172886
20
179.16196815175238
0
LWPOLYLINE
5
147
100
AcDbEntity
8
0
100
AcDbPolyline
90
4
70
1
43
0.0
10
-226.03013564172892
20
184.66196815175238
10
-229.53013564172889
20
184.66196815175238
10
-229.53013564172892
20
179.16196815175238
10
-226.03013564172892
20
179.16196815175238
0
LWPOLYLINE
5
148
100
AcDbEntity
8
0
100
AcDbPolyline
90
4
70
1
43
0.0
10
-500.0301356417288
20
184.66196815175238
10
-500.0301356417288
20
179.16196815175238
10
-496.5301356417288
20
179.16196815175238
10
-496.5301356417288
20
184.66196815175238
0
CIRCLE
5
149
100
AcDbEntity
8
0
100
AcDbCircle
10
-508.7801356417288
20
381.9619681517525
30
0
40
1.5000000000000036
0
LWPOLYLINE
5
150
100
AcDbEntity
8
0
100
AcDbPolyline
90
4
70
1
43
0.0
10
-224.53013564172886
20
409.66196815175238
10
-501.53013564172886
20
409.66196815175238
10
-501.53013564172886
20
187.46196815175236
10
-224.53013564172886
20
187.46196815175239
0
LWPOLYLINE
5
151
100
AcDbEntity
8
0
100
AcDbPolyline
90
4
70
1
43
0.0
10
-500.0301356417288
20
419.66196815175238
10
-500.0301356417288
20
414.16196815175238
10
-496.5301356417288
20
414.16196815175238
10
-496.5301356417288
20
419.66196815175238
0
CIRCLE
5
152
100
AcDbEntity
8
0
100
AcDbCircle
10
-508.7801356417288
20
226.96196815175259
30
0
40
1.5000000000000036
0
LWPOLYLINE
5
153
100
AcDbEntity
8
0
100
AcDbPolyline
90
4
70
1
43
0.0
10
-485.0301356417288
20
414.16196815175238
10
-485.0301356417288
20
419.66196815175238
10
-488.53013564172886
20
419.66196815175238
10
-488.53013564172886
20
414.16196815175238
0
CIRCLE
5
154
100
AcDbEntity
8
0
100
AcDbCircle
10
-253.53013564172886
20
171.96196815175239
30
0
40
2.5
0
LWPOLYLINE
5
155
100
AcDbEntity
8
0
100
AcDbPolyline
90
32
70
1
43
0.0
10
-511.53013564172903
20
156.96196815175267
10
-511.5301356417288
20
296.9619681517525
10
-506.03013564172886
20
296.9619681517525
10
-506.03013564172886
20
306.96196815175256
10
-511.5301356417288
20
306.9619681517525
10
-511.53013564172863
20
456.9619681517525
10
-506.03013564172886
20
456.9619681517525
10
-506.03013564172869
20
466.9619681517525
10
-220.03013564172886
20
466.96196815175233
10
-220.0301356417288
20
456.96196815175233
10
-214.53013564172886
20
456.96196815175233
10
-214.53013564172892
20
306.96196815175233
10
-220.03013564172889
20
306.96196815175233
10
-220.03013564172889
20
296.96196815175233
10
-214.53013564172892
20
296.96196815175233
10
-214.53013564172892
20
156.96196815175233
10
-220.03013564172889
20
156.96196815175253
10
-220.03013564172889
20
146.96196815175233
10
-214.53013564172892
20
146.96196815175233
10
-214.53013564172892
20
126.96196815175234
10
-288.78013564172886
20
126.96196815175256
10
-288.78013564172898
20
132.46196815175253
10
-298.78013564172892
20
132.46196815175253
10
-298.78013564172898
20
126.96196815175234
10
-427.28013564172903
20
126.96196815175253
10
-427.28013564172903
20
132.46196815175261
10
-437.28013564172892
20
132.46196815175267
10
-437.28013564172898
20
126.96196815175263
10
-511.53013564172886
20
126.96196815175239
10
-511.53013564172886
20
146.96196815175259
10
-506.03013564172903
20
146.96196815175267
10
-506.03013564172898
20
156.96196815175281
0
LWPOLYLINE
5
156
100
AcDbEntity
8
0
100
AcDbPolyline
90
4
70
1
43
0.0
10
-375.03013564172886
20
390.25068527641372
10
-375.03013564172886
20
378.25068527641372
10
-351.03013564172886
20
378.25068527641372
10
-351.03013564172892
20
390.25068527641372
0
LWPOLYLINE
5
157
100
AcDbEntity
8
0
100
AcDbPolyline
90
4
70
1
43
0.0
10
-351.03013564172892
20
344.05068527641367
10
-375.03013564172886
20
344.05068527641367
10
-375.0301356417288
20
332.05068527641367
10
-351.03013564172886
20
332.05068527641367
0
LWPOLYLINE
5
158
100
AcDbEntity
8
0
100
AcDbPolyline
90
4
70
1
43
0.0
10
-388.03013564172886
20
317.15068527641375
10
-388.03013564172886
20
405.15068527641375
10
-338.0301356417288
20
405.15068527641375
10
-338.03013564172892
20
317.1506852764137
0
LWPOLYLINE
5
159
100
AcDbEntity
8
0
100
AcDbPolyline
90
4
70
1
43
0.0
10
-243.53013564172886
20
334.06571462489353
10
-249.03013564172886
20
334.06571462489353
10
-249.03013564172886
20
330.56571462489353
10
-243.53013564172886
20
330.56571462489353
0
CIRCLE
5
160
100
AcDbEntity
8
0
100
AcDbCircle
10
-472.53013564172886
20
408.16571462489355
30
0
40
2.5
0
LWPOLYLINE
5
161
100
AcDbEntity
8
0
100
AcDbPolyline
90
4
70
1
43
0.0
10
-482.53013564172903
20
330.56571462489359
10
-477.03013564172898
20
330.56571462489359
10
-477.03013564172892
20
334.06571462489359
10
-482.53013564172903
20
334.06571462489359
0
LWPOLYLINE
5
162
100
AcDbEntity
8
0
100
AcDbPolyline
90
4
70
1
43
0.0
10
-477.03013564172892
20
376.76571462489358
10
-477.03013564172892
20
380.26571462489358
10
-482.53013564172898
20
380.26571462489358
10
-482.53013564172886
20
376.76571462489358
0
LWPOLYLINE
5
163
100
AcDbEntity
8
0
100
AcDbPolyline
90
4
70
1
43
0.0
10
-486.53013564172886
20
373.1657146248935
10
-498.53013564172892
20
373.1657146248935
10
-498.53013564172892
20
349.1657146248935
10
-486.53013564172886
20
349.1657146248935
0
LWPOLYLINE
5
164
100
AcDbEntity
8
0
100
AcDbPolyline
90
4
70
1
43
0.0
10
-249.03013564172886
20
376.76571462489346
10
-243.53013564172886
20
376.76571462489346
10
-243.53013564172886
20
380.26571462489352
10
-249.03013564172886
20
380.26571462489352
0
LWPOLYLINE
5
165
100
AcDbEntity
8
0
100
AcDbPolyline
90
4
70
1
43
0.0
10
-265.03013564172886
20
406.16571462489355
10
-461.03013564172892
20
406.16571462489355
10
-461.03013564172886
20
316.16571462489355
10
-265.03013564172886
20
316.16571462489355
0
LWPOLYLINE
5
166
100
AcDbEntity
8
0
100
AcDbPolyline
90
4
70
1
43
0.0
10
-243.53013564172886
20
345.56571462489353
10
-249.03013564172886
20
345.56571462489353
10
-249.03013564172886
20
342.06571462489353
10
-243.53013564172886
20
342.06571462489353
0
LWPOLYLINE
5
167
100
AcDbEntity
8
0
100
AcDbPolyline
90
4
70
1
43
0.0
10
-227.53013564172886
20
333.66571462489355
10
-239.53013564172886
20
333.66571462489355
10
-239.53013564172889
20
309.6657146248935
10
-227.53013564172889
20
309.66571462489355
0
LWPOLYLINE
5
168
100
AcDbEntity
8
0
100
AcDbPolyline
90
4
70
1
43
0.0
10
-243.53013564172886
20
391.76571462489346
10
-249.03013564172886
20
391.76571462489346
10
-249.03013564172886
20
388.26571462489358
10
-243.53013564172886
20
388.26571462489346
0
LWPOLYLINE
5
169
100
AcDbEntity
8
0
100
AcDbPolyline
90
4
70
1
43
0.0
10
-477.03013564172892
20
345.56571462489359
10
-482.53013564172898
20
345.56571462489359
10
-482.53013564172886
20
342.06571462489359
10
-477.03013564172892
20
342.06571462489359
0
CIRCLE
5
170
100
AcDbEntity
8
0
100
AcDbCircle
10
-253.53013564172883
20
314.1657146248935
30
0
40
2.5
0
LWPOLYLINE
5
171
100
AcDbEntity
8
0
100
AcDbPolyline
90
4
70
1
43
0.0
10
-239.53013564172886
20
412.66571462489355
10
-239.53013564172886
20
388.66571462489355
10
-227.53013564172889
20
388.66571462489355
10
-227.53013564172886
20
412.66571462489355
0
LWPOLYLINE
5
172
100
AcDbEntity
8
0
100
AcDbPolyline
90
4
70
1
43
0.0
10
-482.53013564172886
20
391.76571462489363
10
-482.53013564172886
20
388.26571462489363
10
-477.03013564172892
20
388.26571462489358
10
-477.03013564172892
20
391.76571462489358
0
CIRCLE
5
173
100
AcDbEntity
8
0
100
AcDbCircle
10
-472.53013564172898
20
314.16571462489355
30
0
40
2.5
0
CIRCLE
5
174
100
AcDbEntity
8
0
100
AcDbCircle
10
-253.53013564172892
20
408.1657146248935
30
0
40
2.5
0
LWPOLYLINE
5
175
100
AcDbEntity
8
0
100
AcDbPolyline
90
4
70
1
43
0.0
10
-501.03013564172886
20
416.16571462489355
10
-225.03013564172889
20
416.16571462489355
10
-225.03013564172889
20
306.16571462489355
10
-501.03013564172892
20
306.16571462489355
0
ENDSEC
0
SECTION
2
OBJECTS
0
DICTIONARY
5
C
100
AcDbDictionary
3
ACAD_GROUP
350
D
3
ACAD_MLINESTYLE
350
17
0
DICTIONARY
5
D
100
AcDbDictionary
0
DICTIONARY
5
1A
330
C
100
AcDbDictionary
0
DICTIONARY
5
17
100
AcDbDictionary
0
ENDSEC
0
EOF
